0
SECTION
2
BLOCKS
0
ENDSEC
0
SECTION
2
ENTITIES
0
ARC
8
working
10
0.0354596
20
-25.94415974
30
-0.0348175
40
30.66509069
50
84.44947607
51
95.69463957
0
ARC
8
working
10
-13.51759416
20
1.95623963
30
-0.0532205
40
16.72571172
50
354.1156716
51
369.01537864
0
ARC
8
working
10
-18.87912532
20
0.8742828
30
-0.0338925
40
19.70805186
50
1.77689115
51
4.22603556
0
ARC
8
working
10
19.37523955
20
0.92109665
30
0.0338925
40
20.20576955
50
180.07247381
51
182.61277954
0
3DLINE
8
working
10
-1.01654596
20
0.89934151
30
0.0338925
11
-0.83051383
21
0.89553825
31
0.0338925
0
3DLINE
8
working
10
-1.01727705
20
1.48650838
30
0.0338925
11
-1.01654596
21
0.89934151
31
0.0338925
0
3DLINE
8
working
10
-1.01727705
20
1.48650838
30
0.0215515
11
-0.82259088
21
1.48746136
31
0.0215515
0
3DLINE
8
working
10
0.81944988
20
1.48538278
30
-0.0338925
11
1.01360983
21
1.48659544
31
-0.0338925
0
3DLINE
8
working
10
1.01360983
20
1.48659544
30
-0.0338925
11
1.01196706
21
0.89497533
31
-0.0338925
0
3DLINE
8
working
10
1.01196706
20
0.89497533
30
-0.0524525
11
0.82891648
21
0.89419383
31
-0.0524525
0
ARC
8
working
10
19.37523955
20
0.92109665
30
0.0338925
40
20.20576955
50
176.01838255
51
178.39379748
0
ARC
8
working
10
0.00077353
20
-0.17195584
30
-0.0338925
40
2.61585916
50
72.77619724
51
107.40656188
0
ARC
8
working
10
-0.51002838
20
23.79614367
30
-0.0532005
40
23.8327022
50
273.17393718
51
278.76095822
0
ARC
8
working
10
-18.87912532
20
0.8742828
30
-0.0338925
40
19.70805186
50
-2.54257418
51
0.05788589
0
ARC
8
working
10
13.71328962
20
1.95116385
30
0.0339905
40
16.92440422
50
171.09983075
51
185.81012086
0
ARC
8
working
10
0.41779565
20
23.32308545
30
0.0338925
40
23.35535506
50
261.27712541
51
266.98772823
0
ENDSEC
0
EOF
